Advertising Console

    Coeur de pirate - Comme des enfants - Cover - Lecon guitare

    Reposter
    lol_nem

    par lol_nem

    28
    5 789 vues
    Salut ;).
    Voici la tab de l'intro :
    e-----------------------------------------
    B---------3-------------------------------
    G---0---------2-----0------2----0---------
    D---0---------1-----2-----------2---------
    A-------------2-----------------3---------
    E---3---------------0---------------------

    e-----------------------------------------
    B---0-----------------0-------------------
    G---0-----0----2-----------0----------0---
    D--------------1-----------2-----2----2---
    A--------------2----------------------3---
    E---3----------------------0--------------

    Pour le reste, y'a juste 4 accords en capo 3 : G(320003), B7 ( x21202), Em(022000) et C( 032010).
    Voila :). Si vous avez des soucis... n'hésitez pas ;).

    @++