Advertising Console

    J'ai du bon tabac ( guitare )

    Repost
    Yona

    par Yona

    0
    1 624 vues
    Alors voila un de mes nombreux essais ... pour finalement donner ce résultat.
    Je remercie pitouffe pour la tablature.

    --------------------------------------------------------
    -------------0-----------------0---1---1---0---0--------
    ----0---2-------0---2----2------------------------------
    --------------------------------------------------------
    --------------------------------------------------------
    --------------------------------------------------------

    --------------------------------------------------------
    -------------0-----------------0---1---3----------------
    ----0---2-------0---2----2-----------------0------------
    --------------------------------------------------------
    --------------------------------------------------------
    --------------------------------------------------------