Advertising Console

    Fils de cham

    Repost
    SeB&STePH

    par SeB&STePH

    19
    395 vues
    morceau trouvé d oreille vous pouvez donner vos commentaires
    Et voila la tablature
    Fils de Cham (Tété)

    Intro :

    E------------------|
    B------------------|
    G---------0--------|
    D---2-------2------|
    A-----1-2-----1-2--|
    E-0----------------|

    Couplet :

    E------------------------------------|
    B-------------------0---0---X--------|
    G---------0---------2---2---X--------|
    D---2-------2-------1---1---X--------|
    A-----1-2-----0-1-2-2-----2-X-3-3-2--|
    E-0-------------------2--------------|

    E------------------------------------|
    B---1---1-------0--------------------|
    G---2---2-------2-2------------------|
    D---2---2-------1-1------------------|
    A-0-------0-0-1-2-2-0----------------|
    E-----0---------------3-0-5b-5-3-----|

    Refrain :

    E------------------------------------|
    B-------------------0---0---X--------|
    G---------4---------2---2---X--------|
    D---5-----5-5-------1---1---X--------|
    A-----4-5-5---0-1-2-2-----2-X-3-3-2--|
    E-3-------3-----------2--------------|

    E------------------------------------|
    B-----------------1-1-1-1-1----------|
    G---0---0-0-------3-3-3-3-3----------|
    D---2---1-2-------2-2-2-2-2----------|
    A---2---2-2-2-0---3-3-3-3-3-3-4-5----|
    E-0-0-2-2-0-----3--------------------|

    Pont :

    E------------------------------------|
    B---1-------0---------------1--------|
    G-0-2-------2---------------0--------|
    D-2-2-------1-------2-------2--------|
    A-2-0-2-3-0-2-2-3-2-2-------3-3-2-1--|
    E-------------------0-2-3-0----------|

    E------------------------------------|
    B-1-------0---------------1----------|
    G-2-------2---------------0----------|
    D-2-------1-------2-------2----------|
    A-0-2-3-0-2-2-3-2-2-------3-3-4-5----|
    E-----------------0-2-3-0------------|

    enchainé sur le refrain

    Fin :

    E--------------------------|
    B--------------------------|
    G-------2-----------5---0--|
    D---2-4---5-4-2-1-2-4-5-2--|
    A-2-------------2---0---2--|
    E-----------------------0--|