Advertising Console

    Daft Punk - Something About Us

    Reposter
    Terminator2006

    par Terminator2006

    328
    142 764 vues

    138 commentaires

    dragster2000
    c'est une des rares chanson a m'avoir fait pleurer et j'en suis très fier car c'est la chanson que j'appreci le plus !!! et je vous offre un grand coeur les Daft Punk !!!
    Par dragster2000Il y a 3 ans
    eshasweety
    lol :-) ;) ...........
    Par eshasweetyIl y a 5 ans
    lisendela
    EPIC? VIDS ..i feel lonely though.. :)
    Par lisendelaIl y a 5 ans
    Yondaime Uzumaki
    Pour les guitariste je met tablature du solo de 2:14;

    -----------------10------------------------------------------------10-12~|
    B|-------------10~----13~--------10---------10------------------/10~-------|
    G|-------10-12-------------10-12----10-12~----12-12-10-10------------------|
    D|-10-12-------------------------------------------------12-10-12----------|
    A|-------------------------------------------------------------------------|
    E|-------------------------------------------------------------------------|

    E|-12-13-12-------------------------------|-----------------10-------------|
    B|----------13-10~------10-13-10-10-------|------------10~-----13~---------|
    G|--------------------10------------10----|------10-12---------------------|
    D|------------------10-----------------12-|-10-12--------------------------|
    A|-------------------------------------|
    E|-------------------------------------|
    Par Yondaime UzumakiIl y a 5 ans
    GoLraD94
    Electro funk ? MDR
    C'est de la minimaliste ^^'
    Par GoLraD94Il y a 5 ans
    Voir plus de commentaires